  0
SECTION
  2
HEADER
  9
$ACADVER
  1
AC1003
  9
$INSBASE
 10
0.000000
 20
0.000000
  9
$EXTMIN
 10
0.000000
 20
0.000000
  9
$EXTMAX
 10
210.000000
 20
297.000000
  9
$LIMMIN
 10
0.000000
 20
0.000000
  9
$LIMMAX
 10
210.000000
 20
297.000000
  9
$VIEWCTR
 10
105.000000
 20
148.500000
  9
$VIEWSIZE
 40
297.000000
  9
$PEXTMIN
 10
0.000000
 20
0.000000
 30
0.000000
  9
$PEXTMAX
 10
210.000000
 20
297.000000
 30
0.000000
  9
$SNAPMODE
 70
     0
  9
$SNAPUNIT
 10
1.000000
 20
1.000000
  9
$SNAPBASE
 10
0.000000
 20
0.000000
  9
$SNAPANG
 50
0.000000
  9
$SNAPISOPAIR
 70
     0
  9
$SNAPSTYLE
 70
     0
  9
$GRIDMODE
 70
     0
  9
$GRIDUNIT
 10
0.000000
 20
0.000000
  9
$ORTHOMODE
 70
     0
  9
$REGENMODE
 70
     1
  9
$FILLMODE
 70
     1
  9
$QTEXTMODE
 70
     0
  9
$DRAGMODE
 70
     2
  9
$LTSCALE
 40
0.250000
  9
$OSMODE
 70
     0
  9
$ATTMODE
 70
     1
  9
$TEXTSIZE
 40
6.000000
  9
$TRACEWID
 40
0.050000
  9
$TEXTSTYLE
  7
STANDARD
  9
$CLAYER
  8
0
  9
$CELTYPE
  6
BYLAYER
  9
$CECOLOR
 62
   256
  9
$DIMSCALE
 40
1.000000
  9
$DIMASZ
 40
1.000000
  9
$DIMEXO
 40
0.000000
  9
$DIMDLI
 40
0.500000
  9
$DIMRND
 40
0.000000
  9
$DIMDLE
 40
0.000000
  9
$DIMEXE
 40
0.000000
  9
$DIMTP
 40
0.000000
  9
$DIMTM
 40
0.000000
  9
$DIMTXT
 40
4.000000
  9
$DIMCEN
 40
0.000000
  9
$DIMTSZ
 40
0.000000
  9
$DIMTOL
 70
     0
  9
$DIMLIM
 70
     0
  9
$DIMTIH
 70
     1
  9
$DIMTOH
 70
     1
  9
$DIMSE1
 70
     0
  9
$DIMSE2
 70
     0
  9
$DIMTAD
 70
     0
  9
$DIMZIN
 70
     0
  9
$DIMBLK
  1

  9
$DIMASO
 70
     0
  9
$DIMSHO
 70
     0
  9
$DIMPOST
  1

  9
$DIMAPOST
  1

  9
$DIMALT
 70
     0
  9
$DIMALTD
 70
     0
  9
$DIMALTF
 40
25.400000
  9
$DIMLFAC
 40
1.000000
  9
$DIMTOFL
 70
     0
  9
$DIMTVP
 40
0.000000
  9
$DIMTIX
 70
     0
  9
$DIMSOXD
 70
     0
  9
$DIMSAH
 70
     0
  9
$DIMBLKL
  1

  9
$DIMBLKR
  1

  9
$LUNITS
 70
     2
  9
$LUPREC
 70
     2
  9
$AXISMODE
 70
     0
  9
$AXISUNIT
 10
1.000000
 20
1.000000
  9
$SKETCHINC
 40
0.000000
  9
$FILLETRAD
 40
0.000000
  9
$AUNITS
 70
     1
  9
$AUPREC
 70
     2
  9
$MENU
  1
ACAD
  9
$ELEVATION
 40
0.000000
  9
$THICKNESS
 40
0.000000
  9
$VIEWDIR
 10
0.000000
 20
0.000000
 30
1.000000
  9
$LIMCHECK
 70
     1
  9
$BLIPMODE
 70
     1
  9
$CHAMFERA
 40
0.000000
  9
$CHAMFERB
 40
0.000000
  9
$FASTZOOM
 70
     1
  9
$SKPOLY
 70
     0
  9
$TDCREATE
 40
0.000000
  9
$TDUPDATE
 40
0.000000
  9
$TDINDWG
 40
0.000000
  9
$TDUSRTIMER
 40
0.000000
  9
$USRTIMER
 70
     1
  9
$ANGBASE
 50
0.000000
  9
$ANGDIR
 70
     0
  9
$PDMODE
 70
     0
  9
$PDSIZE
 40
0.000000
  9
$PLINEWID
 40
0.000000
  9
$COORDS
 70
     2
  9
$USERI1
 70
     0
  9
$USERI2
 70
     0
  9
$USERI3
 70
     0
  9
$USERI4
 70
     0
  9
$USERI5
 70
     0
  9
$USERR1
 40
0.000000
  9
$USERR2
 40
0.000000
  9
$USERR3
 40
0.000000
  9
$USERR4
 40
0.000000
  9
$USERR5
 40
0.000000
  0
ENDSEC
  0
SECTION
  2
TABLES
  0
TABLE
  2
LTYPE
 70
     5
  0
LTYPE
  2
CONTINUOUS
 70
    64
  3
Solid line
 72
    65
 73
     0
 40
0.0
  0
LTYPE
  2
HIDDEN
 70
    64
  3
------------------------
 72
    65
 73
     2
 40
12.6
 49
8.4
 49
-4.2
  0
LTYPE
  2
DOT
 70
    64
  3
････････････････････････
 72
    65
 73
     2
 40
8.0
 49
6.0
 49
-2.0
  0
LTYPE
  2
DASHDOT
 70
    64
  3
--･--･--･--･--･--･--･--
 72
    65
 73
     4
 40
50.5
 49
30.0
 49
-9.0
 49
2.5
 49
-9.0
  0
LTYPE
  2
DIVIDE
 70
    64
  3
--･･--･･--･･--･･--･･--
 72
    65
 73
     6
 40
58.0
 49
30.0
 49
-9.0
 49
2.5
 49
-5.0
 49
2.5
 49
-9.0
  0
LTYPE
  2
ACAD_ISO06W100
 70
    64
  3
____ ... ____ ... ____
 72
    65
 73
     8
 40
37.5
 49
24.0
 49
-3.0
 49
0.5
 49
-3.0
 49
0.5
 49
-3.0
 49
0.5
 49
-3.0
  0
LTYPE
  2
ACAD_ISO14W100
 70
    64
  3
__ . . . __ . . . __ . . . 
 72
    65
 73
     8
 40
25.5
 49
12.0
 49
-3.0
 49
0.5
 49
-3.0
 49
0.5
 49
-3.0
 49
0.5
 49
-3.0
  0
ENDTAB
  0
TABLE
  2
LAYER
 70
3
  0
LAYER
  2
1
 70
64
 62
7
  6
CONTINUOUS
  0
LAYER
  2
2
 70
64
 62
5
  6
CONTINUOUS
  0
LAYER
  2
11
 70
64
 62
7
  6
CONTINUOUS
  0
ENDTAB
  0
TABLE
  2
STYLE
 70
     2
  0
STYLE
  2
STANDARD
 70
    64
 40
0.0
 41
1.0
 50
0.0
 71
     0
 42
0.2
  3
TXT
  4

  0
STYLE
  2
KANJI
 70
    64
 40
0.0
 41
1.0
 50
0.0
 71
     0
 42
0.2
  3
TXT
  4
BIGFONT
  0
ENDTAB
  0
TABLE
  2
VIEW
 70
     0
  0
ENDTAB
  0
ENDSEC
  0
SECTION
  2
BLOCKS
  0
ENDSEC
  0
SECTION
  2
ENTITIES
  0
LINE
  8
1
 62
7
  6
CONTINUOUS
 10
117.170136
 20
161.478169
 11
120.754802
 21
161.478169
  0
LINE
  8
1
 62
7
  6
CONTINUOUS
 10
116.095571
 20
168.978169
 11
120.754802
 21
168.978169
  0
TEXT
  8
1
 62
7
  6
CONTINUOUS
 10
75.754801
 20
190.478169
 40
4.000000
 41
1.000000
  1
手動膨張弁
  7
KANJI
 50
0.000000
 51
0.000000
  0
LINE
  8
1
 62
7
  6
CONTINUOUS
 10
74.754801
 20
189.478169
 11
74.754801
 21
195.478169
  0
LINE
  8
1
 62
7
  6
CONTINUOUS
 10
96.754801
 20
189.478169
 11
74.754801
 21
189.478169
  0
LINE
  8
1
 62
7
  6
CONTINUOUS
 10
96.754801
 20
195.478169
 11
96.754801
 21
189.478169
  0
LINE
  8
1
 62
7
  6
CONTINUOUS
 10
74.754801
 20
195.478169
 11
96.754801
 21
195.478169
  0
LINE
  8
2
 62
5
  6
DASHDOT
 10
73.945056
 20
84.211729
 11
96.950711
 21
84.211729
  0
LINE
  8
2
 62
5
  6
DASHDOT
 10
80.754801
 20
65.211729
 11
90.754800
 21
65.211729
  0
LINE
  8
2
 62
5
  6
DASHDOT
 10
80.754801
 20
103.211730
 11
90.754800
 21
103.211730
  0
LINE
  8
2
 62
5
  6
DASHDOT
 10
85.754801
 20
118.323731
 11
85.754801
 21
49.502430
  0
CIRCLE
  8
1
 62
7
  6
CONTINUOUS
 10
85.754801
 20
84.211729
 40
4.500000
  0
CIRCLE
  8
1
 62
7
  6
CONTINUOUS
 10
85.754801
 20
84.211729
 40
3.500000
  0
CIRCLE
  8
1
 62
7
  6
CONTINUOUS
 10
85.754801
 20
65.211729
 40
3.250000
  0
CIRCLE
  8
1
 62
7
  6
CONTINUOUS
 10
85.754801
 20
103.211730
 40
3.250000
  0
LINE
  8
1
 62
7
  6
CONTINUOUS
 10
94.754800
 20
94.211730
 11
92.754800
 21
108.211729
  0
LINE
  8
1
 62
7
  6
CONTINUOUS
 10
94.754800
 20
74.211730
 11
94.754800
 21
94.211730
  0
LINE
  8
1
 62
7
  6
CONTINUOUS
 10
92.754800
 20
60.211729
 11
94.754800
 21
74.211730
  0
LINE
  8
1
 62
7
  6
CONTINUOUS
 10
76.754801
 20
74.211730
 11
78.754801
 21
60.211729
  0
LINE
  8
1
 62
7
  6
CONTINUOUS
 10
76.754801
 20
94.211730
 11
76.754801
 21
74.211730
  0
LINE
  8
1
 62
7
  6
CONTINUOUS
 10
78.754801
 20
108.211729
 11
76.754801
 21
94.211730
  0
ARC
  8
1
 62
7
  6
CONTINUOUS
 10
85.754801
 20
60.211729
 40
7.000000
 50
180.000000
 51
0.000000
  0
ARC
  8
1
 62
7
  6
CONTINUOUS
 10
85.754801
 20
108.211729
 40
7.000000
 50
0.000000
 51
180.000000
  0
LINE
  8
1
 62
7
  6
CONTINUOUS
 10
94.754800
 20
159.165991
 11
110.084928
 21
159.165991
  0
LINE
  8
1
 62
7
  6
CONTINUOUS
 10
93.801802
 20
171.290346
 11
110.084928
 21
171.290346
  0
ARC
  8
1
 62
7
  6
CONTINUOUS
 10
105.655522
 20
174.321435
 40
5.367228
 50
-34.384245
 51
34.384245
  0
ARC
  8
1
 62
7
  6
CONTINUOUS
 10
105.655523
 20
156.134902
 40
5.367227
 50
-34.384248
 51
34.384248
  0
ARC
  8
1
 62
7
  6
CONTINUOUS
 10
90.960572
 20
165.228169
 40
20.062178
 50
-17.587953
 51
17.587953
  0
LINE
  8
1
 62
7
  6
CONTINUOUS
 10
62.558649
 20
171.290346
 11
77.728802
 21
171.290346
  0
LINE
  8
1
 62
7
  6
CONTINUOUS
 10
62.558649
 20
159.165991
 11
76.754801
 21
159.165991
  0
ARC
  8
1
 62
7
  6
CONTINUOUS
 10
66.988055
 20
174.321435
 40
5.367228
 50
145.615755
 51
-145.615755
  0
ARC
  8
1
 62
7
  6
CONTINUOUS
 10
66.988054
 20
156.134902
 40
5.367227
 50
145.615752
 51
-145.615752
  0
ARC
  8
1
 62
7
  6
CONTINUOUS
 10
81.683004
 20
165.228169
 40
20.062178
 50
162.412047
 51
-162.412047
  0
LINE
  8
1
 62
7
  6
CONTINUOUS
 10
54.754799
 20
160.228169
 11
56.982479
 21
160.228169
  0
LINE
  8
1
 62
7
  6
CONTINUOUS
 10
54.754799
 20
170.228169
 11
56.992731
 21
170.228169
  0
LINE
  8
2
 62
5
  6
CONTINUOUS
 10
55.533797
 20
174.228168
 11
55.549577
 21
174.195708
  0
LINE
  8
2
 62
5
  6
CONTINUOUS
 10
55.549577
 20
174.195708
 11
55.596472
 21
174.099210
  0
LINE
  8
2
 62
5
  6
CONTINUOUS
 10
55.596472
 20
174.099210
 11
55.673074
 21
173.941282
  0
LINE
  8
2
 62
5
  6
CONTINUOUS
 10
55.673074
 20
173.941282
 11
55.776833
 21
173.726139
  0
LINE
  8
2
 62
5
  6
CONTINUOUS
 10
55.776833
 20
173.726139
 11
55.903846
 21
173.459439
  0
LINE
  8
2
 62
5
  6
CONTINUOUS
 10
55.903846
 20
173.459439
 11
56.048742
 21
173.148081
  0
LINE
  8
2
 62
5
  6
CONTINUOUS
 10
56.048742
 20
173.148081
 11
56.204757
 21
172.800003
  0
LINE
  8
2
 62
5
  6
CONTINUOUS
 10
56.204757
 20
172.800003
 11
56.364089
 21
172.424000
  0
LINE
  8
2
 62
5
  6
CONTINUOUS
 10
56.364089
 20
172.424000
 11
56.518522
 21
172.029564
  0
LINE
  8
2
 62
5
  6
CONTINUOUS
 10
56.518522
 20
172.029564
 11
56.660257
 21
171.626746
  0
LINE
  8
2
 62
5
  6
CONTINUOUS
 10
56.660257
 20
171.626746
 11
56.782820
 21
171.226021
  0
LINE
  8
2
 62
5
  6
CONTINUOUS
 10
56.782820
 20
171.226021
 11
56.881866
 21
170.838122
  0
LINE
  8
2
 62
5
  6
CONTINUOUS
 10
56.881866
 20
170.838122
 11
56.955713
 21
170.473829
  0
LINE
  8
2
 62
5
  6
CONTINUOUS
 10
56.955713
 20
170.473829
 11
57.005460
 21
170.143695
  0
LINE
  8
2
 62
5
  6
CONTINUOUS
 10
57.005460
 20
170.143695
 11
57.034658
 21
169.857694
  0
LINE
  8
2
 62
5
  6
CONTINUOUS
 10
57.034658
 20
169.857694
 11
57.048533
 21
169.624814
  0
LINE
  8
2
 62
5
  6
CONTINUOUS
 10
57.048533
 20
169.624814
 11
57.052923
 21
169.452636
  0
LINE
  8
2
 62
5
  6
CONTINUOUS
 10
57.052923
 20
169.452636
 11
57.053102
 21
169.346919
  0
LINE
  8
2
 62
5
  6
CONTINUOUS
 10
57.053102
 20
169.346919
 11
57.052727
 21
169.311271
  0
LINE
  8
2
 62
5
  6
CONTINUOUS
 10
57.052727
 20
169.311271
 11
57.052131
 21
169.275579
  0
LINE
  8
2
 62
5
  6
CONTINUOUS
 10
57.052131
 20
169.275579
 11
57.049080
 21
169.169216
  0
LINE
  8
2
 62
5
  6
CONTINUOUS
 10
57.049080
 20
169.169216
 11
57.040148
 21
168.994311
  0
LINE
  8
2
 62
5
  6
CONTINUOUS
 10
57.040148
 20
168.994311
 11
57.020722
 21
168.754394
  0
LINE
  8
2
 62
5
  6
CONTINUOUS
 10
57.020722
 20
168.754394
 11
56.986372
 21
168.454368
  0
LINE
  8
2
 62
5
  6
CONTINUOUS
 10
56.986372
 20
168.454368
 11
56.934240
 21
168.100495
  0
LINE
  8
2
 62
5
  6
CONTINUOUS
 10
56.934240
 20
168.100495
 11
56.864133
 21
167.700377
  0
LINE
  8
2
 62
5
  6
CONTINUOUS
 10
56.864133
 20
167.700377
 11
56.778994
 21
167.262948
  0
LINE
  8
2
 62
5
  6
CONTINUOUS
 10
56.778994
 20
167.262948
 11
56.684656
 21
166.798447
  0
LINE
  8
2
 62
5
  6
CONTINUOUS
 10
56.684656
 20
166.798447
 11
56.588889
 21
166.318362
  0
LINE
  8
2
 62
5
  6
CONTINUOUS
 10
56.588889
 20
166.318362
 11
56.499964
 21
165.835299
  0
LINE
  8
2
 62
5
  6
CONTINUOUS
 10
56.499964
 20
165.835299
 11
56.425062
 21
165.362756
  0
LINE
  8
2
 62
5
  6
CONTINUOUS
 10
56.425062
 20
165.362756
 11
56.368908
 21
164.914779
  0
LINE
  8
2
 62
5
  6
CONTINUOUS
 10
56.368908
 20
164.914779
 11
56.332934
 21
164.505487
  0
LINE
  8
2
 62
5
  6
CONTINUOUS
 10
56.332934
 20
164.505487
 11
56.315193
 21
164.148489
  0
LINE
  8
2
 62
5
  6
CONTINUOUS
 10
56.315193
 20
164.148489
 11
56.311031
 21
163.856218
  0
LINE
  8
2
 62
5
  6
CONTINUOUS
 10
56.311031
 20
163.856218
 11
56.314361
 21
163.639253
  0
LINE
  8
2
 62
5
  6
CONTINUOUS
 10
56.314361
 20
163.639253
 11
56.319243
 21
163.505681
  0
LINE
  8
2
 62
5
  6
CONTINUOUS
 10
56.319243
 20
163.505681
 11
56.321390
 21
163.460580
  0
LINE
  8
2
 62
5
  6
CONTINUOUS
 10
56.321390
 20
163.460580
 11
56.323796
 21
163.415393
  0
LINE
  8
2
 62
5
  6
CONTINUOUS
 10
56.323796
 20
163.415393
 11
56.332463
 21
163.280567
  0
LINE
  8
2
 62
5
  6
CONTINUOUS
 10
56.332463
 20
163.280567
 11
56.351436
 21
163.058369
  0
LINE
  8
2
 62
5
  6
CONTINUOUS
 10
56.351436
 20
163.058369
 11
56.386508
 21
162.752783
  0
LINE
  8
2
 62
5
  6
CONTINUOUS
 10
56.386508
 20
162.752783
 11
56.443994
 21
162.369750
  0
LINE
  8
2
 62
5
  6
CONTINUOUS
 10
56.443994
 20
162.369750
 11
56.529374
 21
161.917400
  0
LINE
  8
2
 62
5
  6
CONTINUOUS
 10
56.529374
 20
161.917400
 11
56.646056
 21
161.406181
  0
LINE
  8
2
 62
5
  6
CONTINUOUS
 10
56.646056
 20
161.406181
 11
56.794503
 21
160.848838
  0
LINE
  8
2
 62
5
  6
CONTINUOUS
 10
56.794503
 20
160.848838
 11
56.971857
 21
160.260182
  0
LINE
  8
2
 62
5
  6
CONTINUOUS
 10
56.971857
 20
160.260182
 11
57.172108
 21
159.656655
  0
LINE
  8
2
 62
5
  6
CONTINUOUS
 10
57.172108
 20
159.656655
 11
57.386743
 21
159.055726
  0
LINE
  8
2
 62
5
  6
CONTINUOUS
 10
57.386743
 20
159.055726
 11
57.605713
 21
158.475166
  0
LINE
  8
2
 62
5
  6
CONTINUOUS
 10
57.605713
 20
158.475166
 11
57.818517
 21
157.932302
  0
LINE
  8
2
 62
5
  6
CONTINUOUS
 10
57.818517
 20
157.932302
 11
58.015202
 21
157.443308
  0
LINE
  8
2
 62
5
  6
CONTINUOUS
 10
58.015202
 20
157.443308
 11
58.187115
 21
157.022605
  0
LINE
  8
2
 62
5
  6
CONTINUOUS
 10
58.187115
 20
157.022605
 11
58.327334
 21
156.682403
  0
LINE
  8
2
 62
5
  6
CONTINUOUS
 10
58.327334
 20
156.682403
 11
58.430782
 21
156.432395
  0
LINE
  8
2
 62
5
  6
CONTINUOUS
 10
58.430782
 20
156.432395
 11
58.494096
 21
156.279578
  0
LINE
  8
2
 62
5
  6
CONTINUOUS
 10
58.494096
 20
156.279578
 11
58.515400
 21
156.228169
  0
LINE
  8
1
 62
7
  6
CONTINUOUS
 10
60.754801
 20
174.228168
 11
60.754801
 21
156.228169
  0
LINE
  8
1
 62
7
  6
CONTINUOUS
 10
62.558649
 20
153.103813
 11
73.754801
 21
153.103813
  0
LINE
  8
1
 62
7
  6
CONTINUOUS
 10
100.253681
 20
177.352524
 11
110.084928
 21
177.352524
  0
LINE
  8
1
 62
7
  6
CONTINUOUS
 10
97.754800
 20
153.103813
 11
110.084928
 21
153.103813
  0
LINE
  8
1
 62
7
  6
CONTINUOUS
 10
112.754801
 20
172.728168
 11
112.754801
 21
157.728169
  0
LINE
  8
2
 62
5
  6
CONTINUOUS
 10
117.922421
 20
172.728168
 11
117.901858
 21
172.700600
  0
LINE
  8
2
 62
5
  6
CONTINUOUS
 10
117.901858
 20
172.700600
 11
117.840755
 21
172.618645
  0
LINE
  8
2
 62
5
  6
CONTINUOUS
 10
117.840755
 20
172.618645
 11
117.740972
 21
172.484522
  0
LINE
  8
2
 62
5
  6
CONTINUOUS
 10
117.740972
 20
172.484522
 11
117.605936
 21
172.301829
  0
LINE
  8
2
 62
5
  6
CONTINUOUS
 10
117.605936
 20
172.301829
 11
117.440970
 21
172.075406
  0
LINE
  8
2
 62
5
  6
CONTINUOUS
 10
117.440970
 20
172.075406
 11
117.253489
 21
171.811176
  0
LINE
  8
2
 62
5
  6
CONTINUOUS
 10
117.253489
 20
171.811176
 11
117.052901
 21
171.515973
  0
LINE
  8
2
 62
5
  6
CONTINUOUS
 10
117.052901
 20
171.515973
 11
116.850099
 21
171.197380
  0
LINE
  8
2
 62
5
  6
CONTINUOUS
 10
116.850099
 20
171.197380
 11
116.656531
 21
170.863572
  0
LINE
  8
2
 62
5
  6
CONTINUOUS
 10
116.656531
 20
170.863572
 11
116.482955
 21
170.523178
  0
LINE
  8
2
 62
5
  6
CONTINUOUS
 10
116.482955
 20
170.523178
 11
116.338092
 21
170.185138
  0
LINE
  8
2
 62
5
  6
CONTINUOUS
 10
116.338092
 20
170.185138
 11
116.227425
 21
169.858539
  0
LINE
  8
2
 62
5
  6
CONTINUOUS
 10
116.227425
 20
169.858539
 11
116.152416
 21
169.552425
  0
LINE
  8
2
 62
5
  6
CONTINUOUS
 10
116.152416
 20
169.552425
 11
116.110350
 21
169.275560
  0
LINE
  8
2
 62
5
  6
CONTINUOUS
 10
116.110350
 20
169.275560
 11
116.094876
 21
169.036148
  0
LINE
  8
2
 62
5
  6
CONTINUOUS
 10
116.094876
 20
169.036148
 11
116.097210
 21
168.841518
  0
LINE
  8
2
 62
5
  6
CONTINUOUS
 10
116.097210
 20
168.841518
 11
116.107790
 21
168.697806
  0
LINE
  8
2
 62
5
  6
CONTINUOUS
 10
116.107790
 20
168.697806
 11
116.118080
 21
168.609648
  0
LINE
  8
2
 62
5
  6
CONTINUOUS
 10
116.118080
 20
168.609648
 11
116.122208
 21
168.579935
  0
LINE
  8
2
 62
5
  6
CONTINUOUS
 10
116.122208
 20
168.579935
 11
116.126673
 21
168.550192
  0
LINE
  8
2
 62
5
  6
CONTINUOUS
 10
116.126673
 20
168.550192
 11
116.141900
 21
168.461597
  0
LINE
  8
2
 62
5
  6
CONTINUOUS
 10
116.141900
 20
168.461597
 11
116.172838
 21
168.316038
  0
LINE
  8
2
 62
5
  6
CONTINUOUS
 10
116.172838
 20
168.316038
 11
116.226058
 21
168.116614
  0
LINE
  8
2
 62
5
  6
CONTINUOUS
 10
116.226058
 20
168.116614
 11
116.307683
 21
167.867578
  0
LINE
  8
2
 62
5
  6
CONTINUOUS
 10
116.307683
 20
167.867578
 11
116.421263
 21
167.574282
  0
LINE
  8
2
 62
5
  6
CONTINUOUS
 10
116.421263
 20
167.574282
 11
116.566147
 21
167.243130
  0
LINE
  8
2
 62
5
  6
CONTINUOUS
 10
116.566147
 20
167.243130
 11
116.736771
 21
166.881546
  0
LINE
  8
2
 62
5
  6
CONTINUOUS
 10
116.736771
 20
166.881546
 11
116.923079
 21
166.497957
  0
LINE
  8
2
 62
5
  6
CONTINUOUS
 10
116.923079
 20
166.497957
 11
117.112017
 21
166.101752
  0
LINE
  8
2
 62
5
  6
CONTINUOUS
 10
117.112017
 20
166.101752
 11
117.289757
 21
165.703208
  0
LINE
  8
2
 62
5
  6
CONTINUOUS
 10
117.289757
 20
165.703208
 11
117.444172
 21
165.313336
  0
LINE
  8
2
 62
5
  6
CONTINUOUS
 10
117.444172
 20
165.313336
 11
117.566963
 21
164.943626
  0
LINE
  8
2
 62
5
  6
CONTINUOUS
 10
117.566963
 20
164.943626
 11
117.654961
 21
164.605682
  0
LINE
  8
2
 62
5
  6
CONTINUOUS
 10
117.654961
 20
164.605682
 11
117.710286
 21
164.310747
  0
LINE
  8
2
 62
5
  6
CONTINUOUS
 10
117.710286
 20
164.310747
 11
117.739339
 21
164.069146
  0
LINE
  8
2
 62
5
  6
CONTINUOUS
 10
117.739339
 20
164.069146
 11
117.750862
 21
163.889702
  0
LINE
  8
2
 62
5
  6
CONTINUOUS
 10
117.750862
 20
163.889702
 11
117.753529
 21
163.779187
  0
LINE
  8
2
 62
5
  6
CONTINUOUS
 10
117.753529
 20
163.779187
 11
117.753651
 21
163.741863
  0
LINE
  8
2
 62
5
  6
CONTINUOUS
 10
117.753651
 20
163.741863
 11
117.753375
 21
163.704465
  0
LINE
  8
2
 62
5
  6
CONTINUOUS
 10
117.753375
 20
163.704465
 11
117.750228
 21
163.592854
  0
LINE
  8
2
 62
5
  6
CONTINUOUS
 10
117.750228
 20
163.592854
 11
117.737717
 21
163.408845
  0
LINE
  8
2
 62
5
  6
CONTINUOUS
 10
117.737717
 20
163.408845
 11
117.706490
 21
163.155641
  0
LINE
  8
2
 62
5
  6
CONTINUOUS
 10
117.706490
 20
163.155641
 11
117.646225
 21
162.838057
  0
LINE
  8
2
 62
5
  6
CONTINUOUS
 10
117.646225
 20
162.838057
 11
117.547741
 21
162.462730
  0
LINE
  8
2
 62
5
  6
CONTINUOUS
 10
117.547741
 20
162.462730
 11
117.404909
 21
162.038247
  0
LINE
  8
2
 62
5
  6
CONTINUOUS
 10
117.404909
 20
162.038247
 11
117.216024
 21
161.575138
  0
LINE
  8
2
 62
5
  6
CONTINUOUS
 10
117.216024
 20
161.575138
 11
116.984410
 21
161.085694
  0
LINE
  8
2
 62
5
  6
CONTINUOUS
 10
116.984410
 20
161.085694
 11
116.718183
 21
160.583602
  0
LINE
  8
2
 62
5
  6
CONTINUOUS
 10
116.718183
 20
160.583602
 11
116.429294
 21
160.083436
  0
LINE
  8
2
 62
5
  6
CONTINUOUS
 10
116.429294
 20
160.083436
 11
116.132066
 21
159.600044
  0
LINE
  8
2
 62
5
  6
CONTINUOUS
 10
116.132066
 20
159.600044
 11
115.841562
 21
159.147915
  0
LINE
  8
2
 62
5
  6
CONTINUOUS
 10
115.841562
 20
159.147915
 11
115.572081
 21
158.740576
  0
LINE
  8
2
 62
5
  6
CONTINUOUS
 10
115.572081
 20
158.740576
 11
115.336025
 21
158.390082
  0
LINE
  8
2
 62
5
  6
CONTINUOUS
 10
115.336025
 20
158.390082
 11
115.143260
 21
158.106636
  0
LINE
  8
2
 62
5
  6
CONTINUOUS
 10
115.143260
 20
158.106636
 11
115.000972
 21
157.898330
  0
LINE
  8
2
 62
5
  6
CONTINUOUS
 10
115.000972
 20
157.898330
 11
114.913871
 21
157.771003
  0
LINE
  8
2
 62
5
  6
CONTINUOUS
 10
114.913871
 20
157.771003
 11
114.884561
 21
157.728169
  0
LINE
  8
1
 62
7
  6
CONTINUOUS
 10
91.504800
 20
207.228168
 11
97.254800
 21
207.228169
  0
LINE
  8
1
 62
7
  6
CONTINUOUS
 10
74.254801
 20
207.228169
 11
80.004801
 21
207.228168
  0
LINE
  8
1
 62
7
  6
CONTINUOUS
 10
91.504800
 20
199.228168
 11
91.504800
 21
207.228168
  0
LINE
  8
1
 62
7
  6
CONTINUOUS
 10
80.004801
 20
207.228168
 11
80.004801
 21
199.228168
  0
ARC
  8
1
 62
7
  6
CONTINUOUS
 10
85.754801
 20
196.957336
 40
11.770832
 50
60.758252
 51
119.241748
  0
LINE
  8
2
 62
5
  6
DASHDOT
 10
85.754801
 20
252.634167
 11
85.754801
 21
145.108081
  0
ARC
  8
1
 62
7
  6
CONTINUOUS
 10
101.004801
 20
189.728169
 40
1.500000
 50
-90.000000
 51
0.000000
  0
LINE
  8
1
 62
7
  6
CONTINUOUS
 10
102.504801
 20
196.728169
 11
102.504801
 21
189.728169
  0
LINE
  8
1
 62
7
  6
CONTINUOUS
 10
85.777869
 20
188.228169
 11
101.004801
 21
188.228169
  0
ARC
  8
1
 62
7
  6
CONTINUOUS
 10
70.504801
 20
189.728169
 40
1.500000
 50
180.000000
 51
-90.000000
  0
LINE
  8
1
 62
7
  6
CONTINUOUS
 10
70.504801
 20
188.228169
 11
85.777869
 21
188.228169
  0
LINE
  8
1
 62
7
  6
CONTINUOUS
 10
69.004801
 20
196.728169
 11
69.004801
 21
189.728169
  0
LINE
  8
1
 62
7
  6
CONTINUOUS
 10
69.004801
 20
196.728169
 11
102.504801
 21
196.728169
  0
ARC
  8
1
 62
7
  6
CONTINUOUS
 10
71.302441
 20
187.228169
 40
1.000000
 50
-40.000004
 51
90.035663
  0
ARC
  8
1
 62
7
  6
CONTINUOUS
 10
72.962380
 20
184.539236
 40
2.000000
 50
39.133126
 51
94.021200
  0
LINE
  8
1
 62
7
  6
CONTINUOUS
 10
74.721209
 20
185.348571
 11
74.513743
 21
185.801486
  0
LINE
  8
1
 62
7
  6
CONTINUOUS
 10
72.068485
 20
186.585381
 11
64.920671
 21
178.066949
  0
LINE
  8
1
 62
7
  6
CONTINUOUS
 10
75.019999
 20
184.523487
 11
74.721209
 21
185.348571
  0
LINE
  8
1
 62
7
  6
CONTINUOUS
 10
75.261254
 20
183.737297
 11
75.019999
 21
184.523487
  0
LINE
  8
1
 62
7
  6
CONTINUOUS
 10
75.457539
 20
182.697332
 11
75.261254
 21
183.737297
  0
LINE
  8
1
 62
7
  6
CONTINUOUS
 10
75.625304
 20
181.275516
 11
75.457539
 21
182.697332
  0
LINE
  8
1
 62
7
  6
CONTINUOUS
 10
75.754801
 20
179.310634
 11
75.625304
 21
181.275516
  0
LINE
  8
1
 62
7
  6
CONTINUOUS
 10
76.754801
 20
158.058168
 11
76.754801
 21
154.172168
  0
LINE
  8
1
 62
7
  6
CONTINUOUS
 10
94.754800
 20
157.980165
 11
94.754800
 21
154.172167
  0
ARC
  8
1
 62
7
  6
CONTINUOUS
 10
89.215633
 20
183.781379
 40
0.209791
 50
0.000000
 51
-179.976661
  0
LINE
  8
1
 62
7
  6
CONTINUOUS
 10
89.425426
 20
182.346411
 11
89.425426
 21
183.781379
  0
LINE
  8
1
 62
7
  6
CONTINUOUS
 10
90.902354
 20
183.940820
 11
89.425426
 21
182.346411
  0
ARC
  8
1
 62
7
  6
CONTINUOUS
 10
91.045008
 20
183.781379
 40
0.209791
 50
-49.915241
 51
130.108098
  0
LINE
  8
1
 62
7
  6
CONTINUOUS
 10
89.719132
 20
182.027528
 11
91.179276
 21
183.621939
  0
LINE
  8
1
 62
7
  6
CONTINUOUS
 10
91.204449
 20
180.424728
 11
89.719132
 21
182.027528
  0
ARC
  8
1
 62
7
  6
CONTINUOUS
 10
91.053401
 20
180.273678
 40
0.209791
 50
-139.926911
 51
46.628147
  0
LINE
  8
1
 62
7
  6
CONTINUOUS
 10
89.425426
 20
181.717038
 11
90.885567
 21
180.131020
  0
LINE
  8
1
 62
7
  6
CONTINUOUS
 10
89.425426
 20
180.273678
 11
89.425426
 21
181.717038
  0
ARC
  8
1
 62
7
  6
CONTINUOUS
 10
89.215633
 20
180.273678
 40
0.209791
 50
-179.976661
 51
-0.010617
  0
LINE
  8
1
 62
7
  6
CONTINUOUS
 10
89.014234
 20
183.781379
 11
89.014234
 21
180.273678
  0
ARC
  8
1
 62
7
  6
CONTINUOUS
 10
86.543614
 20
183.157966
 40
0.209791
 50
-148.234799
 51
6.864876
  0
LINE
  8
1
 62
7
  6
CONTINUOUS
 10
81.370887
 20
181.826130
 11
80.674383
 21
181.826130
  0
ARC
  8
1
 62
7
  6
CONTINUOUS
 10
81.412847
 20
181.154798
 40
0.662937
 50
-93.631921
 51
93.610686
  0
LINE
  8
1
 62
7
  6
CONTINUOUS
 10
80.674383
 20
180.483469
 11
81.370887
 21
180.483469
  0
LINE
  8
1
 62
7
  6
CONTINUOUS
 10
80.674383
 20
181.826130
 11
80.674383
 21
180.483469
  0
LINE
  8
1
 62
7
  6
CONTINUOUS
 10
81.370887
 20
183.579979
 11
80.674383
 21
183.579979
  0
ARC
  8
1
 62
7
  6
CONTINUOUS
 10
81.412847
 20
182.900259
 40
0.662937
 50
-93.631921
 51
93.610686
  0
LINE
  8
1
 62
7
  6
CONTINUOUS
 10
80.674383
 20
182.237319
 11
81.370887
 21
182.237319
  0
LINE
  8
1
 62
7
  6
CONTINUOUS
 10
80.674383
 20
183.579979
 11
80.674383
 21
182.237319
  0
LINE
  8
1
 62
7
  6
CONTINUOUS
 10
81.370887
 20
183.982778
 11
80.254801
 21
183.982778
  0
ARC
  8
1
 62
7
  6
CONTINUOUS
 10
81.404454
 20
182.891868
 40
1.090912
 50
-52.493551
 51
91.777221
  0
ARC
  8
1
 62
7
  6
CONTINUOUS
 10
81.404454
 20
181.163190
 40
1.090912
 50
-91.741160
 51
52.529612
  0
LINE
  8
1
 62
7
  6
CONTINUOUS
 10
80.254801
 20
180.072278
 11
81.370887
 21
180.072278
  0
LINE
  8
1
 62
7
  6
CONTINUOUS
 10
80.254801
 20
183.982778
 11
80.254801
 21
180.072278
  0
ARC
  8
1
 62
7
  6
CONTINUOUS
 10
85.704450
 20
182.939784
 40
0.662937
 50
9.453804
 51
-90.022287
  0
ARC
  8
1
 62
7
  6
CONTINUOUS
 10
85.754801
 20
181.194323
 40
1.082520
 50
-154.250856
 51
92.636658
  0
ARC
  8
1
 62
7
  6
CONTINUOUS
 10
84.974378
 20
180.825091
 40
0.209791
 50
26.585242
 51
-154.422743
  0
ARC
  8
1
 62
7
  6
CONTINUOUS
 10
85.763190
 20
181.194323
 40
0.662937
 50
-155.396771
 51
90.001052
  0
ARC
  8
1
 62
7
  6
CONTINUOUS
 10
85.696057
 20
182.939784
 40
1.082520
 50
13.063438
 51
-86.469949
  0
LINE
  8
1
 62
7
  6
CONTINUOUS
 10
93.099965
 20
165.228169
 11
95.754846
 21
163.104263
  0
LINE
  8
1
 62
7
  6
CONTINUOUS
 10
95.754846
 20
163.104263
 11
89.958359
 21
163.104263
  0
LINE
  8
1
 62
7
  6
CONTINUOUS
 10
88.409678
 20
164.343207
 11
89.958359
 21
163.104263
  0
LINE
  8
1
 62
7
  6
CONTINUOUS
 10
88.409678
 20
164.343207
 11
79.914067
 21
164.343207
  0
LINE
  8
1
 62
7
  6
CONTINUOUS
 10
80.887523
 20
161.688327
 11
79.914067
 21
164.343207
  0
LINE
  8
1
 62
7
  6
CONTINUOUS
 10
75.754756
 20
165.228169
 11
80.887523
 21
161.688327
  0
LINE
  8
1
 62
7
  6
CONTINUOUS
 10
93.099965
 20
165.228169
 11
75.754756
 21
165.228169
  0
LINE
  8
1
 62
7
  6
CONTINUOUS
 10
75.762069
 20
173.031857
 11
76.150116
 21
172.733723
  0
LINE
  8
1
 62
7
  6
CONTINUOUS
 10
79.972471
 20
170.228168
 11
91.537130
 21
170.228168
  0
LINE
  8
1
 62
7
  6
CONTINUOUS
 10
78.972471
 20
171.290346
 11
78.972471
 21
171.228168
  0
ARC
  8
1
 62
7
  6
CONTINUOUS
 10
79.972471
 20
171.228168
 40
1.000000
 50
180.000000
 51
-90.000000
  0
LINE
  8
1
 62
7
  6
CONTINUOUS
 10
92.537130
 20
171.290346
 11
92.537130
 21
171.228168
  0
ARC
  8
1
 62
7
  6
CONTINUOUS
 10
91.537130
 20
171.228168
 40
1.000000
 50
-90.000000
 51
0.000000
  0
LINE
  8
1
 62
7
  6
CONTINUOUS
 10
93.254800
 20
171.579022
 11
92.537130
 21
171.290346
  0
LINE
  8
1
 62
7
  6
CONTINUOUS
 10
94.429476
 20
172.156372
 11
93.254800
 21
171.579022
  0
LINE
  8
1
 62
7
  6
CONTINUOUS
 10
95.359486
 20
172.733723
 11
94.429476
 21
172.156372
  0
LINE
  8
1
 62
7
  6
CONTINUOUS
 10
96.110958
 20
173.311073
 11
95.359486
 21
172.733723
  0
LINE
  8
1
 62
7
  6
CONTINUOUS
 10
96.720657
 20
173.888423
 11
96.110958
 21
173.311073
  0
LINE
  8
1
 62
7
  6
CONTINUOUS
 10
97.211239
 20
174.465773
 11
96.720657
 21
173.888423
  0
LINE
  8
1
 62
7
  6
CONTINUOUS
 10
97.597520
 20
175.043123
 11
97.211239
 21
174.465773
  0
LINE
  8
1
 62
7
  6
CONTINUOUS
 10
97.889461
 20
175.620473
 11
97.597520
 21
175.043123
  0
LINE
  8
1
 62
7
  6
CONTINUOUS
 10
98.093763
 20
176.197824
 11
97.889461
 21
175.620473
  0
LINE
  8
1
 62
7
  6
CONTINUOUS
 10
98.214736
 20
176.775174
 11
98.093763
 21
176.197824
  0
LINE
  8
1
 62
7
  6
CONTINUOUS
 10
98.254800
 20
177.352524
 11
98.214736
 21
176.775174
  0
LINE
  8
1
 62
7
  6
CONTINUOUS
 10
76.754801
 20
152.228168
 11
76.754801
 21
148.228168
  0
LINE
  8
1
 62
7
  6
CONTINUOUS
 10
77.754801
 20
153.228168
 11
93.754800
 21
153.228168
  0
ARC
  8
1
 62
7
  6
CONTINUOUS
 10
77.754801
 20
152.228168
 40
1.000000
 50
90.000000
 51
180.000000
  0
LINE
  8
1
 62
7
  6
CONTINUOUS
 10
94.754800
 20
148.228168
 11
94.754800
 21
152.228168
  0
ARC
  8
1
 62
7
  6
CONTINUOUS
 10
93.754800
 20
152.228168
 40
1.000000
 50
0.000000
 51
90.000000
  0
LINE
  8
1
 62
7
  6
CONTINUOUS
 10
78.254801
 20
171.579022
 11
78.972471
 21
171.290346
  0
LINE
  8
1
 62
7
  6
CONTINUOUS
 10
77.080125
 20
172.156372
 11
78.254801
 21
171.579022
  0
LINE
  8
1
 62
7
  6
CONTINUOUS
 10
76.150116
 20
172.733723
 11
77.080125
 21
172.156372
  0
LINE
  8
1
 62
7
  6
CONTINUOUS
 10
70.478342
 20
173.022397
 11
75.754801
 21
173.022397
  0
LINE
  8
1
 62
7
  6
CONTINUOUS
 10
75.754801
 20
179.310634
 11
75.754801
 21
173.022397
  0
LINE
  8
1
 62
7
  6
CONTINUOUS
 10
64.321197
 20
177.352524
 11
64.261893
 21
177.280356
  0
LINE
  8
1
 62
7
  6
CONTINUOUS
 10
64.261893
 20
177.280356
 11
64.205316
 21
177.208186
  0
LINE
  8
1
 62
7
  6
CONTINUOUS
 10
64.205316
 20
177.208186
 11
64.151485
 21
177.136018
  0
LINE
  8
1
 62
7
  6
CONTINUOUS
 10
64.151485
 20
177.136018
 11
64.100418
 21
177.063850
  0
LINE
  8
1
 62
7
  6
CONTINUOUS
 10
64.100418
 20
177.063850
 11
64.052132
 21
176.991680
  0
LINE
  8
1
 62
7
  6
CONTINUOUS
 10
64.052132
 20
176.991680
 11
64.006648
 21
176.919512
  0
LINE
  8
1
 62
7
  6
CONTINUOUS
 10
64.006648
 20
176.919512
 11
63.963984
 21
176.847342
  0
LINE
  8
1
 62
7
  6
CONTINUOUS
 10
63.963984
 20
176.847342
 11
63.924160
 21
176.775174
  0
LINE
  8
1
 62
7
  6
CONTINUOUS
 10
63.924160
 20
176.775174
 11
63.887055
 21
176.703006
  0
LINE
  8
1
 62
7
  6
CONTINUOUS
 10
63.887055
 20
176.703006
 11
63.852602
 21
176.630836
  0
LINE
  8
1
 62
7
  6
CONTINUOUS
 10
63.852602
 20
176.630836
 11
63.820893
 21
176.558668
  0
LINE
  8
1
 62
7
  6
CONTINUOUS
 10
63.820893
 20
176.558668
 11
63.792024
 21
176.486499
  0
LINE
  8
1
 62
7
  6
CONTINUOUS
 10
63.792024
 20
176.486499
 11
63.766088
 21
176.414330
  0
LINE
  8
1
 62
7
  6
CONTINUOUS
 10
63.766088
 20
176.414330
 11
63.743178
 21
176.342162
  0
LINE
  8
1
 62
7
  6
CONTINUOUS
 10
63.743178
 20
176.342162
 11
63.723391
 21
176.269992
  0
LINE
  8
1
 62
7
  6
CONTINUOUS
 10
63.723391
 20
176.269992
 11
63.706817
 21
176.197824
  0
LINE
  8
1
 62
7
  6
CONTINUOUS
 10
63.706817
 20
176.197824
 11
63.693187
 21
176.125655
  0
LINE
  8
1
 62
7
  6
CONTINUOUS
 10
63.693187
 20
176.125655
 11
63.682296
 21
176.053486
  0
LINE
  8
1
 62
7
  6
CONTINUOUS
 10
63.682296
 20
176.053486
 11
63.674334
 21
175.981317
  0
LINE
  8
1
 62
7
  6
CONTINUOUS
 10
63.674334
 20
175.981317
 11
63.669496
 21
175.909149
  0
LINE
  8
1
 62
7
  6
CONTINUOUS
 10
63.669496
 20
175.909149
 11
63.667970
 21
175.836980
  0
LINE
  8
1
 62
7
  6
CONTINUOUS
 10
63.667970
 20
175.836980
 11
63.669951
 21
175.764811
  0
LINE
  8
1
 62
7
  6
CONTINUOUS
 10
63.669951
 20
175.764811
 11
63.675629
 21
175.692642
  0
LINE
  8
1
 62
7
  6
CONTINUOUS
 10
63.675629
 20
175.692642
 11
63.685198
 21
175.620473
  0
LINE
  8
1
 62
7
  6
CONTINUOUS
 10
63.685198
 20
175.620473
 11
63.698119
 21
175.548305
  0
LINE
  8
1
 62
7
  6
CONTINUOUS
 10
63.698119
 20
175.548305
 11
63.713978
 21
175.476135
  0
LINE
  8
1
 62
7
  6
CONTINUOUS
 10
63.713978
 20
175.476135
 11
63.733154
 21
175.403967
  0
LINE
  8
1
 62
7
  6
CONTINUOUS
 10
63.733154
 20
175.403967
 11
63.756026
 21
175.331799
  0
LINE
  8
1
 62
7
  6
CONTINUOUS
 10
63.756026
 20
175.331799
 11
63.782973
 21
175.259629
  0
LINE
  8
1
 62
7
  6
CONTINUOUS
 10
63.782973
 20
175.259629
 11
63.814375
 21
175.187461
  0
LINE
  8
1
 62
7
  6
CONTINUOUS
 10
63.814375
 20
175.187461
 11
63.850609
 21
175.115291
  0
LINE
  8
1
 62
7
  6
CONTINUOUS
 10
63.850609
 20
175.115291
 11
63.892054
 21
175.043123
  0
LINE
  8
1
 62
7
  6
CONTINUOUS
 10
63.892054
 20
175.043123
 11
63.937526
 21
174.970955
  0
LINE
  8
1
 62
7
  6
CONTINUOUS
 10
63.937526
 20
174.970955
 11
63.986156
 21
174.898785
  0
LINE
  8
1
 62
7
  6
CONTINUOUS
 10
63.986156
 20
174.898785
 11
64.038798
 21
174.826617
  0
LINE
  8
1
 62
7
  6
CONTINUOUS
 10
64.038798
 20
174.826617
 11
64.096304
 21
174.754447
  0
LINE
  8
1
 62
7
  6
CONTINUOUS
 10
64.096304
 20
174.754447
 11
64.159527
 21
174.682279
  0
LINE
  8
1
 62
7
  6
CONTINUOUS
 10
64.159527
 20
174.682279
 11
64.229321
 21
174.610111
  0
LINE
  8
1
 62
7
  6
CONTINUOUS
 10
64.229321
 20
174.610111
 11
64.306538
 21
174.537941
  0
LINE
  8
1
 62
7
  6
CONTINUOUS
 10
64.306538
 20
174.537941
 11
64.392030
 21
174.465773
  0
LINE
  8
1
 62
7
  6
CONTINUOUS
 10
64.392030
 20
174.465773
 11
64.481971
 21
174.393605
  0
LINE
  8
1
 62
7
  6
CONTINUOUS
 10
64.481971
 20
174.393605
 11
64.573907
 21
174.321435
  0
LINE
  8
1
 62
7
  6
CONTINUOUS
 10
64.573907
 20
174.321435
 11
64.670752
 21
174.249267
  0
LINE
  8
1
 62
7
  6
CONTINUOUS
 10
64.670752
 20
174.249267
 11
64.775425
 21
174.177097
  0
LINE
  8
1
 62
7
  6
CONTINUOUS
 10
64.775425
 20
174.177097
 11
64.890840
 21
174.104929
  0
LINE
  8
1
 62
7
  6
CONTINUOUS
 10
64.890840
 20
174.104929
 11
65.019913
 21
174.032761
  0
LINE
  8
1
 62
7
  6
CONTINUOUS
 10
65.019913
 20
174.032761
 11
65.165559
 21
173.960591
  0
LINE
  8
1
 62
7
  6
CONTINUOUS
 10
65.165559
 20
173.960591
 11
65.330694
 21
173.888423
  0
LINE
  8
1
 62
7
  6
CONTINUOUS
 10
65.330694
 20
173.888423
 11
65.510707
 21
173.814280
  0
LINE
  8
1
 62
7
  6
CONTINUOUS
 10
65.510707
 20
173.814280
 11
65.700843
 21
173.737320
  0
LINE
  8
1
 62
7
  6
CONTINUOUS
 10
65.700843
 20
173.737320
 11
65.903806
 21
173.659231
  0
LINE
  8
1
 62
7
  6
CONTINUOUS
 10
65.903806
 20
173.659231
 11
66.122299
 21
173.581705
  0
LINE
  8
1
 62
7
  6
CONTINUOUS
 10
66.122299
 20
173.581705
 11
66.359028
 21
173.506436
  0
LINE
  8
1
 62
7
  6
CONTINUOUS
 10
66.359028
 20
173.506436
 11
66.616694
 21
173.435113
  0
LINE
  8
1
 62
7
  6
CONTINUOUS
 10
66.616694
 20
173.435113
 11
66.898002
 21
173.369428
  0
LINE
  8
1
 62
7
  6
CONTINUOUS
 10
66.898002
 20
173.369428
 11
67.205657
 21
173.311073
  0
LINE
  8
1
 62
7
  6
CONTINUOUS
 10
67.205657
 20
173.311073
 11
67.537675
 21
173.258806
  0
LINE
  8
1
 62
7
  6
CONTINUOUS
 10
67.537675
 20
173.258806
 11
67.890630
 21
173.210488
  0
LINE
  8
1
 62
7
  6
CONTINUOUS
 10
67.890630
 20
173.210488
 11
68.265063
 21
173.166453
  0
LINE
  8
1
 62
7
  6
CONTINUOUS
 10
68.265063
 20
173.166453
 11
68.661517
 21
173.127042
  0
LINE
  8
1
 62
7
  6
CONTINUOUS
 10
68.661517
 20
173.127042
 11
69.080531
 21
173.092592
  0
LINE
  8
1
 62
7
  6
CONTINUOUS
 10
69.080531
 20
173.092592
 11
69.522646
 21
173.063443
  0
LINE
  8
1
 62
7
  6
CONTINUOUS
 10
69.522646
 20
173.063443
 11
69.988403
 21
173.039932
  0
LINE
  8
1
 62
7
  6
CONTINUOUS
 10
69.988403
 20
173.039932
 11
70.478342
 21
173.022397
  0
LINE
  8
1
 62
7
  6
CONTINUOUS
 10
94.754800
 20
148.228168
 11
76.754801
 21
148.228168
  0
ARC
  8
1
 62
7
  6
CONTINUOUS
 10
97.754800
 20
150.103813
 40
3.000000
 50
90.000000
 51
180.000000
  0
ARC
  8
1
 62
7
  6
CONTINUOUS
 10
73.754801
 20
150.103813
 40
3.000000
 50
0.000000
 51
90.000000
  0
ARC
  8
1
 62
7
  6
CONTINUOUS
 10
63.388582
 20
179.352524
 40
2.000000
 50
-90.000000
 51
-40.000000
  0
LINE
  8
1
 62
7
  6
CONTINUOUS
 10
98.254800
 20
186.228169
 11
98.254800
 21
179.352524
  0
ARC
  8
1
 62
7
  6
CONTINUOUS
 10
100.254800
 20
179.352524
 40
2.000000
 50
180.000000
 51
-90.000000
  0
ARC
  8
1
 62
7
  6
CONTINUOUS
 10
100.254800
 20
186.228169
 40
2.000000
 50
90.000000
 51
180.000000
  0
LINE
  8
2
 62
5
  6
CONTINUOUS
 10
73.957136
 20
196.894547
 11
74.180237
 21
196.728169
  0
LINE
  8
2
 62
5
  6
CONTINUOUS
 10
74.179709
 20
197.096095
 11
74.404800
 21
196.971382
  0
LINE
  8
2
 62
5
  6
CONTINUOUS
 10
97.477752
 20
196.949189
 11
97.312223
 21
196.728169
  0
LINE
  8
2
 62
5
  6
CONTINUOUS
 10
97.284868
 20
197.155710
 11
97.104801
 21
196.955847
  0
LINE
  8
1
 62
7
  6
CONTINUOUS
 10
97.104801
 20
196.728169
 11
97.104801
 21
199.228168
  0
LINE
  8
1
 62
7
  6
CONTINUOUS
 10
74.404800
 20
196.728169
 11
74.404800
 21
199.228168
  0
LINE
  8
1
 62
7
  6
CONTINUOUS
 10
85.754801
 20
199.228168
 11
97.254800
 21
199.228168
  0
LINE
  8
1
 62
7
  6
CONTINUOUS
 10
85.754801
 20
199.228168
 11
74.254801
 21
199.228168
  0
LINE
  8
1
 62
7
  6
CONTINUOUS
 10
75.754801
 20
208.728169
 11
95.754800
 21
208.728169
  0
LINE
  8
1
 62
7
  6
CONTINUOUS
 10
75.754801
 20
211.728171
 11
95.754800
 21
211.728171
  0
LINE
  8
1
 62
7
  6
CONTINUOUS
 10
75.754801
 20
211.728171
 11
76.296301
 21
211.728172
  0
LINE
  8
1
 62
7
  6
CONTINUOUS
 10
92.394328
 20
225.780574
 11
92.394328
 21
215.675768
  0
LINE
  8
1
 62
7
  6
CONTINUOUS
 10
79.115273
 20
225.780574
 11
79.115273
 21
215.675768
  0
ARC
  8
1
 62
7
  6
CONTINUOUS
 10
75.864395
 20
220.778287
 40
6.050116
 50
-122.501721
 51
-57.498279
  0
ARC
  8
1
 62
7
  6
CONTINUOUS
 10
85.754801
 20
238.462543
 40
23.734372
 50
-106.244875
 51
-73.755125
  0
ARC
  8
1
 62
7
  6
CONTINUOUS
 10
95.645207
 20
220.778287
 40
6.050116
 50
-122.501721
 51
-57.498279
  0
ARC
  8
1
 62
7
  6
CONTINUOUS
 10
95.645207
 20
220.678045
 40
6.050125
 50
57.498330
 51
122.501670
  0
ARC
  8
1
 62
7
  6
CONTINUOUS
 10
85.754801
 20
202.993760
 40
23.734410
 50
73.755152
 51
106.244848
  0
ARC
  8
1
 62
7
  6
CONTINUOUS
 10
75.864395
 20
220.678045
 40
6.050125
 50
57.498330
 51
122.501670
  0
LINE
  8
1
 62
7
  6
CONTINUOUS
 10
98.896085
 20
215.675768
 11
97.254800
 21
214.728171
  0
LINE
  8
1
 62
7
  6
CONTINUOUS
 10
98.896085
 20
225.780574
 11
98.896085
 21
215.675768
  0
LINE
  8
1
 62
7
  6
CONTINUOUS
 10
97.254800
 20
226.728170
 11
98.896085
 21
225.780574
  0
LINE
  8
1
 62
7
  6
CONTINUOUS
 10
74.254801
 20
226.728170
 11
97.254800
 21
226.728170
  0
LINE
  8
1
 62
7
  6
CONTINUOUS
 10
95.754800
 20
208.728169
 11
95.754800
 21
214.728171
  0
LINE
  8
2
 62
5
  6
CONTINUOUS
 10
95.213300
 20
214.728171
 11
95.213300
 21
211.728172
  0
LINE
  8
1
 62
7
  6
CONTINUOUS
 10
75.754801
 20
208.728169
 11
75.754801
 21
214.728171
  0
LINE
  8
2
 62
5
  6
CONTINUOUS
 10
76.296301
 20
211.728172
 11
76.296301
 21
214.728171
  0
LINE
  8
1
 62
7
  6
CONTINUOUS
 10
85.754801
 20
214.728171
 11
97.254800
 21
214.728171
  0
LINE
  8
1
 62
7
  6
CONTINUOUS
 10
74.254801
 20
214.728171
 11
85.754801
 21
214.728171
  0
LINE
  8
2
 62
5
  6
CONTINUOUS
 10
95.213300
 20
211.728172
 11
95.754800
 21
210.790266
  0
LINE
  8
2
 62
5
  6
CONTINUOUS
 10
75.754801
 20
210.790266
 11
76.296301
 21
211.728172
  0
ARC
  8
1
 62
7
  6
CONTINUOUS
 10
73.404800
 20
197.728168
 40
1.000000
 50
-90.000000
 51
0.000000
  0
ARC
  8
1
 62
7
  6
CONTINUOUS
 10
98.104801
 20
197.728168
 40
1.000000
 50
180.000000
 51
-90.000000
  0
LINE
  8
1
 62
7
  6
CONTINUOUS
 10
92.287969
 20
250.568960
 11
97.254800
 21
226.728170
  0
LINE
  8
1
 62
7
  6
CONTINUOUS
 10
74.254801
 20
226.728170
 11
79.221633
 21
250.568960
  0
LINE
  8
1
 62
7
  6
CONTINUOUS
 10
72.613516
 20
215.675768
 11
74.254801
 21
214.728171
  0
LINE
  8
1
 62
7
  6
CONTINUOUS
 10
72.613516
 20
225.780574
 11
72.613516
 21
215.675768
  0
LINE
  8
1
 62
7
  6
CONTINUOUS
 10
74.254801
 20
226.728170
 11
72.613516
 21
225.780574
  0
LINE
  8
1
 62
7
  6
CONTINUOUS
 10
95.754800
 20
208.728169
 11
97.254800
 21
207.228169
  0
LINE
  8
1
 62
7
  6
CONTINUOUS
 10
97.254800
 20
199.228168
 11
97.254800
 21
207.228169
  0
LINE
  8
1
 62
7
  6
CONTINUOUS
 10
74.254801
 20
199.228168
 11
74.254801
 21
207.228169
  0
LINE
  8
1
 62
7
  6
CONTINUOUS
 10
75.754801
 20
208.728169
 11
74.254801
 21
207.228169
  0
LINE
  8
2
 62
5
  6
DASHDOT
 10
42.101886
 20
165.228169
 11
136.028801
 21
165.228169
  0
LINE
  8
2
 62
5
  6
DASHDOT
 10
85.754801
 20
252.634167
 11
85.754801
 21
141.797169
  0
LINE
  8
1
 62
7
  6
CONTINUOUS
 10
63.854891
 20
177.352524
 11
62.558649
 21
177.352524
  0
LINE
  8
1
 62
7
  6
CONTINUOUS
 10
129.754801
 20
170.078168
 11
129.754801
 21
160.378169
  0
LINE
  8
1
 62
7
  6
CONTINUOUS
 10
45.754800
 20
171.678169
 11
45.754800
 21
158.778168
  0
LINE
  8
1
 62
7
  6
CONTINUOUS
 10
44.754800
 20
156.728169
 11
44.754800
 21
173.728168
  0
LINE
  8
1
 62
7
  6
CONTINUOUS
 10
54.254799
 20
158.778168
 11
45.754800
 21
158.778168
  0
LINE
  8
1
 62
7
  6
CONTINUOUS
 10
45.754800
 20
158.778168
 11
44.754800
 21
157.778168
  0
LINE
  8
1
 62
7
  6
CONTINUOUS
 10
54.254799
 20
171.678169
 11
45.754800
 21
171.678169
  0
LINE
  8
1
 62
7
  6
CONTINUOUS
 10
45.754800
 20
171.678169
 11
44.754800
 21
172.678169
  0
LINE
  8
1
 62
7
  6
CONTINUOUS
 10
130.754801
 20
158.228169
 11
130.754801
 21
172.228168
  0
LINE
  8
1
 62
7
  6
CONTINUOUS
 10
121.254802
 20
160.378169
 11
129.754801
 21
160.378169
  0
LINE
  8
1
 62
7
  6
CONTINUOUS
 10
129.754801
 20
160.378169
 11
130.754801
 21
159.378170
  0
LINE
  8
1
 62
7
  6
CONTINUOUS
 10
121.254802
 20
170.078168
 11
129.754801
 21
170.078168
  0
LINE
  8
1
 62
7
  6
CONTINUOUS
 10
129.754801
 20
170.078168
 11
130.754801
 21
171.078168
  0
LINE
  8
1
 62
7
  6
CONTINUOUS
 10
120.754802
 20
160.878169
 11
120.754802
 21
169.578168
  0
LINE
  8
1
 62
7
  6
CONTINUOUS
 10
120.754802
 20
169.578168
 11
121.254802
 21
170.078168
  0
LINE
  8
1
 62
7
  6
CONTINUOUS
 10
121.254802
 20
160.378169
 11
120.754802
 21
160.878169
  0
LINE
  8
1
 62
7
  6
CONTINUOUS
 10
54.754799
 20
171.178169
 11
54.754799
 21
159.278168
  0
LINE
  8
1
 62
7
  6
CONTINUOUS
 10
54.754799
 20
159.278168
 11
54.254799
 21
158.778168
  0
LINE
  8
1
 62
7
  6
CONTINUOUS
 10
54.254799
 20
171.678169
 11
54.754799
 21
171.178169
  0
LINE
  8
1
 62
7
  6
CONTINUOUS
 10
112.754801
 20
172.728168
 11
130.254801
 21
172.728168
  0
LINE
  8
1
 62
7
  6
CONTINUOUS
 10
130.754801
 20
172.228168
 11
130.254801
 21
172.728168
  0
LINE
  8
1
 62
7
  6
CONTINUOUS
 10
112.754801
 20
157.728169
 11
130.254801
 21
157.728169
  0
LINE
  8
1
 62
7
  6
CONTINUOUS
 10
130.254801
 20
157.728169
 11
130.754801
 21
158.228169
  0
LINE
  8
1
 62
7
  6
CONTINUOUS
 10
60.754801
 20
156.228169
 11
45.254800
 21
156.228169
  0
LINE
  8
1
 62
7
  6
CONTINUOUS
 10
44.754800
 20
156.728169
 11
45.254800
 21
156.228169
  0
LINE
  8
1
 62
7
  6
CONTINUOUS
 10
60.754801
 20
174.228168
 11
45.254800
 21
174.228168
  0
LINE
  8
1
 62
7
  6
CONTINUOUS
 10
44.754800
 20
173.728168
 11
45.254800
 21
174.228168
  0
LINE
  8
1
 62
7
  6
CONTINUOUS
 10
112.754801
 20
157.728169
 11
110.084928
 21
153.103813
  0
LINE
  8
1
 62
7
  6
CONTINUOUS
 10
110.084928
 20
177.352524
 11
112.754801
 21
172.728168
  0
LINE
  8
1
 62
7
  6
CONTINUOUS
 10
60.754801
 20
156.228169
 11
62.558649
 21
153.103813
  0
LINE
  8
1
 62
7
  6
CONTINUOUS
 10
62.558649
 20
177.352524
 11
60.754801
 21
174.228168
  0
LINE
  8
1
 62
7
  6
CONTINUOUS
 10
79.417428
 20
250.728170
 11
92.092174
 21
250.728170
  0
ARC
  8
1
 62
7
  6
CONTINUOUS
 10
92.092174
 20
250.528171
 40
0.199999
 50
11.768288
 51
90.000000
  0
ARC
  8
1
 62
7
  6
CONTINUOUS
 10
79.417428
 20
250.528171
 40
0.199999
 50
90.000000
 51
168.231712
  0
TEXT
  8
11
 62
7
  6
CONTINUOUS
 10
73.248826
 20
14.610649
 40
6.000000
 41
0.500000
  1
HGV-3465DX
  7
KANJI
 50
0.000000
 51
0.000000
  0
ENDSEC
  0
EOF
